Deewaana - 1998

Deewaana - 1998

Movie Info

    • Singers

    • Lyricists

    • Music Directors

      Sajid Wajid
    • Mood/Type

      Pop Songs

    • Views

      220564

    • Purchase Track

Deewane Ho Ke Hum tabs

E|-----------------------------------5--5p6--------||
B|-----5-6-5-6-----------------5-6-----------8----||
G|-7-7---------------------7-7---------------------||
Deewane ho ke ham milne lage sanam

E|---------------------------------------------------||
B|--8-8--6--5-5-6-5-------------------------------||
G|-----------------7-------------------------------||
Jab se jude hain silsile

E|----------------------------------5--5p6------||
B|-----5-6-55p6---------------5-6--------8----||
G|-7-7---------------------7-7------------------||
Aankhon se ruth kar neendein chali gayeen

E|-----------------------------------------------||
B|--8-8--6--5-5-6-5-------------------------||
G|-----------------7---------------------------||
Na jaane kaise gul khile

E|-5-5-5-5-5p6--5---------------------------5--------||
B|----------------8---------------8-8-8-8-8---8--6---||
pyaar hua na jaane kab iqraar hua

E|----------------------------------------------------||
B|--6-6-6-6-6p8--6s5--------------------------||
Ke apni baat ban gayi

repeat
Deewane ho ke ham milne lage sanam
Jab se jude hain silsile

antra
E|---5-5--6-5s8---s10--8-6-5p6-------------||
B|------------------------------8---------------||
Dhadakta hai dil tumhaare liye


E|------5---66--------8-6-5---5------------------||
B|--8-8---8-----------------8-------------------||

Aey husn-e-jaan zara sochiye


E|---5-5--6-5s8---s10--8-6-5p6-----------------||
B|------------------------------8----------------||
Haan yeh kya dillagi yeh kya hai sitam


E|------5---66---------8-6-5----5-----------------||
B|--8-8---8------------------8---------------------||
Aaye abhi abhi chal diye

E|--5p6-------------------------------------------||
B|-----8--8p10--6--5----5p6-------------------||
G|-------------------6------7--------------------||
Mithenge kaise yeh faasle



Deewane ho ke ham milne lage sanam
Jab se jude hain silsile
Aankhon se ruth kar neendein chali gayeen
Na jaane kaise gul khile

2nd antra 

Muqaddar mera sanwar jaane do
Dil jo kahe woh kar jaane do
Ho meri baahon mein chale aao tum
Had se mujhe guzar jaane do
Ke aao laga loon tumko gale
Deewane ho ke ham milne lage sanam
Jab se jude hain silsile
Aankhon se ruth kar neendein chali gayeen
Na jaane kaise gul khile
Na jaane kaise pyaar hua na jaane kab iqraar hua
Ke apni baat ban gayi

Advertisement