Aashiqui 2 -2013

Aashiqui 2 -2013

Movie Info

    • Singers

      Arijit Singh

    • Lyricists

    • Music Director

      Mithoon

    • Mood/Type

      Love Song

    • Views

      46446

    • Purchase Track

Tum Hi Ho Guitar Tabs

E|---1------------
B|-1-1--4-4-2-1---2-1-1-1-
G|--------1-3------
Hum Tere Bin, Ab Reh Nahi Sakte 
G|-3-3-1-3-1-0---0--
D|-------1-3--3-
Tere Bina Kya Vajoodh Mera 
E|---1------------
B|-1-1--4-4-2-1---2-1-1-1-
G|--------1-3------
Tujhse Jhuda Agar Ho Jayenge 
G|-3-3-1-3-1-0---0--
D|--------1-3--3-
Toh Khud Se Hi Ho Jayenge Jhuda 
B|---1------1---
G|-1-3--1-3--1-3--1-3-
Kyunki Tum Hi Ho, Ab Tum Hi Ho 
G|-0-3-1--0--0----0-1-3-
D|------3--1-3------
Zindagi Ab Tum Hi Ho----Melody 
B|-1------1----
G|--1-3--1-3---1-3-
Chaina Bhi Mera Dard Bhi 
G|-1-0-0-3-1-0--0---
D|---------3--1-3-
Meri Aashiqui Ab Tum Hi Ho 
E|---1------------
B|-1-1--4-4-2-1---2-1-1-1-
G|--------1-3------
Tera Mera Rishta Hai Kaisa 
G|-3-3-1-3-1-0---0--
D|--------1-3--3-
Ek Pal Door Gawara Nahi 
E|---1------------
B|-1-1--4-4-2-1---2-1-1-1-
G|--------1-3------
Tere Liye Har Roz Hain Jeete 
G|-3-3-1-3-1-0---0--
D|--------1-3--3-
Tujhko Diya Mera Waqt Sabhi 
B|-----------2-2-1-1--1-
G|-----0-0--0-0------3--
D|-1-3-3---3-----------
Koi Lamha Mera Na Ho Tere Bina 
E|--1-0------------
B|-1---1-1-1---------
G|-------3-1-3-1-1--0--
Har Saans Pe Naam Tera---. 
Kyunki Tum Hi Ho
Ab Tum Hi Ho
Zindagi Ab Tum Hi Ho
Chaina Bhi Mera Dard Bhi
Meri Aashiqui Ab Tum Hi Ho
Kyun Ki Tum Hi Ho Ab Tum Hi Ho
Meri Aashiqui Ab Tum Hi Ho 
========Extended(Edited)================ 
E|-1-1---1-1-3-3----
B|---4-4-----4-4-2p1-
Tere Liye Hi Jiya Main 
E|-----1--1-3-3-----
B|-1-1-2-2------4-4-2p1-
Khud Ko Jo Yun De Diya Hai 
B|-2-2-1-2-1-2-1--2-1-
G|-------3-1--
Teri Wafa Ne Mujhko Sambhala 
B|-2-2-1-2-1-2-1--2-1-
G|-------3-1--
Saare Ghamon Ko Dil Se Nikala 
B|-----------2-2-1-1--1-
G|-----0-0--0-0------3--
D|-1-3-3---3-----------
Tere Saath Mera Hai Naseeb Juda 
E|--1-0------------
B|-1---1-1-1---------
G|-------3-1-3-1-1--0--
Tujhe Paake Adhoora Naa Raha Hmm.. 
B|---1------1---
G|-1-3--1-3--1-3--1-3-
Kyunki Tum Hi Ho, Ab Tum Hi Ho 
G|-0-3-1--0--0----0-1-3-
D|------3--1-3------
Zindagi Ab Tum Hi Ho----
Melody 
B|-1------1----
G|--1-3--1-3---1-3-
Chaina Bhi Mera Dard Bhi 
G|-1-0-0-3-1-0--0---
D|---------3--1-3-
Meri Aashiqui Ab Tum Hi Ho

Advertisement