Brahmachari -1968

Brahmachari -1968

Movie Info

    • Singers

      Md.Rafi and Asha Bhosle

    • Lyricists

    • Music Director

      Shankar Jaikishan

    • Mood/Type

      Happy

    • Views

      220061

    • Purchase Track

Aaj Kal Tere Mere Pyar Guitar Tabs

INTRO :-

G |--2-4-2--------2-4-2-------( 2 )-------------- 
D |-----------5------------5-----------------------


G |--2-4-2--------2-4-2-------( 2 )--------------
D |-----------5------------5-----------------------


G |--2-4-2-----------2-4-6--6-7-6-4-4-6-7------
D |-----------5--5----------------------------------


B |--5--5-5--3-3--2-2-----------------------------
G |------------------------4-4----------------------


B |--5-4-2------------------------------------------
G |-----------4-2-1---------------------------------


G |-----2------2-2------2------2-2-----2--------2-2-2--
D |--2-----2---------2------2-------2--------2-----------


B |--------2--3-5-7-5-3-5-5----------------------------
G |--2-4-------------------------------------------------


B |--7-5-7-5-3--2-3-2-----------------------------------
G |------------------------4--2-4-2-1--------1-2-4-2-1-
D |--------------------------------------4-----------------



B |------2-3-2-----------------------------------------
G |--4-----------4-2-----------------------------------


G |------2--------2-2--------2--------2-2--------2--------2-2-2----------------
D |--2-------2-----------2-------2-----------2--------2-------------------------


......Aaj.....kal.....tere....mere....pyar....ke.. ..charche 
G |--2-2----4-----6-6-----6-6-----6-------6------6-6---


......Har....zubaan....par
G |--4------2-1-------------------------------------------D |---------------4----4-----------------------------------


......Sabko....malum....hai....aur....sabko 
G |--1-2-------4-4-------4-----4-----4-4-6-------------


......Khabar....ho....gayi
G |------1------2----2-2---------------------------------
D |--4-----------------------------------------------------

......Aaj.....kal....tere.....mere....pyar....ke.. ..charche 
B |-------------------5------------------------------------
G |--2-2----4-----6-------6-6------6------6------6-6---


......Har....zubaan....par
G |--4------2-1-------------------------------------------
D |---------------4----4----------------------------------


......Sabko....malum....hai....aur....sabko 
G |--1-2-------4-4-------4-----4-----4-4-6-------------


......Khabar....ho....gayi
G |------1------2----2-2---------------------------------
D |--4-----------------------------------------------------


MUSIC :-

B |--5-5-5-3-3-5--------------------------------------------------------------------------
G |------------------6-6-6-4-4-6----------------------------------------------------------
D |----------------------------------7-7-7-5-5-7--7-7-7-5-5-7---------------------------


B |--5-5-5-3-3-5-------------------------------------------------------------------------
G |------------------6-6-6-4-4-6---------------------------------------------------------
D |----------------------------------7-7-7-5-5-7--7-7-7-5-5-7--------------------------


G |----------------7--6-7-6--------------------------------------------------------------
D |-------7-9-7----------------7---------------------------------------------------------
A |--7-----------------------------------------------------------------------------------


G |----------------7--6-7-6-------------------------------------------------------------
D |-------7-9-7----------------7--------------------------------------------------------
A |--7-----------------------------------------------------------------------------------


D |--7-7-7-7-7-7-7-7-7-----------------------------------------------------------------


STANZA :- 

......Humne....to....pyar....mein 
A |--7-9-------7----7-9-----7----------------------------------------------------------


......Aisa......kaam....kar....diya 
G |----------------------------4-2-----------------------------------------------------
D |-----------7--------6---------------------------------------------------------------
A |--7-9-------------------------------------------------------------------------------


......Pyar....ki....raah....mein 
G |--4-6----4----4-6-----4------------------------------------------------------------


......Apna....naam....kar....liya
B |--2-3-----5------------------------------------------------------------------------
G |---------------------4-------------------------------------------------------------
D |---------------6-----------7-------------------------------------------------------


......Humne....to....pyar....mein 
A |--7-9-------7----7-9-----7----------------------------------------------------------


......Aisa......kaam....kar....diya 
G |----------------------------4-2-----------------------------------------------------
D |-----------7--------6---------------------------------------------------------------
A |--7-9-------------------------------------------------------------------------------


......Pyar....ki....raah....mein 
G |--4-6----4----4-6-----4------------------------------------------------------------


......Apna....naam....kar....liya
B |--2-3-----5------------------------------------------------------------------------
G |---------------------4-------------------------------------------------------------
D |---------------6-----------7-------------------------------------------------------


......Pyar......ki....raah....mein
B |------5----------------------------------------------------------------------------
G |--6--------7----6-4-----6---------------------------------------------------------


......Apna....naam....kar....liya
B |-----------2----------------------------------------------------------------------
G |--4-2--------------4------2-2----------------------------------------------------

Advertisement