Masty Ali Zafar -2007

Masty Ali  Zafar -2007

Movie Info

    • Singers

      Ali Zafar

    • Lyricists

    • Music Director

      Ali Zafar

    • Mood/Type

      Pop Songs

    • Views

      218065

    • Purchase Track

Masti Ke Dinn Hain Chalo Guitar Tabs

NOTE - s shows slide .

INTRO -

D |--5--------------5-------------5--------------------
A |------3-5-6-5--------3-5-6-------------------------


D |--5--------------5-------------5--------------------
A |------3-5-6-5--------3-5-6-------------------------


D |--5s6-5-3-1-3--------------------------------------
A |------------------5----------------------------------


G |--5------4----5--5-5--5-----4----------------------
D |------6-----5-------------6-----5------------------


G |-----------3-----------------------------------------
D |--5-6-5-------6-5--6-5-3---------------------------


G |-----------3-----------------------------------------
D |--5-6-5-------6-5--6-5-3---------------------------


G |-----------3-----------------------------------------
D |--5-6-5-------6-5--6-5-3--5------------------------


B |--8--7------6-5--3------4-3----------------------------
G |---------7------------5---------5-4---------------------
D |---------------------------------------6-5---------------


B |--8--7------6-5--3-------4-3--------------------------
G |---------7-------------5---------5-4---------------------
D |----------------------------------------6-5---------------


......Hai....masti...ke....din....hain 
B |--4-----4-3-----4----3------------------------------
G |-----------------------------5-------------------------


......Chalo....jhoomein....aur.....gaayein....hum
B |--3----------------------------------------------------
G |-----5----4-5-----------4---------4------------------
D |--------------------------------6------6----5---------


......Hai....saare...jo....mil....jaayein
B |--4-----4-3-----4----3---------3----------------------
G |-----------------------------5-------------------------


......To....bolo....phir....kya......hai....gham
G |--5----4-5----4---------4-----------------------------
D |----------------------6--------6------5-----------------


......Mohabbat......jaan....maange 
B |-----------------3-3---------3-------------------------
G |--4-----4----------------5-----------------------------
D |-----5-------------------------------------------------


......Kabhi....inkaar.......na....ho
B |--------------4-4------3-----4----------------------
G |--4-------5-----------------------------------------
D |-----5----------------------------------------------


......Hamaari....jeet....mein....bhi 
B |--------------3-3-------------3---------------------
G |--4-----4------------5-----------------------------
D |-----5----------------------------------------------


......Kisi......ki....haar....na....ho
B |----------------4-4----3-----4-----------------------
G |--4-------5-----------------------------------------
D |-----5----------------------------------------------


......Saare....zamaane....mein 
B |--4-3------4-3--------------------------------------
G |------------------5-----3---------------------------


......Ek....hummein....ek....tummein....dum
G |--5----4-5----------4--------4-----------------------
D |---------------------------6-----6------5--------------


......Masti...ke....din....hain 
B |--4-3-----4----3------------------------------
G |---------------------5-------------------------


......Chalo....jhoomein....aur.....gaayein....hum
B |--3----------------------------------------------------
G |-----5----4-5-----------4---------4------------------
D |--------------------------------6------6----5---------


......Masti...ke....din....hain 
B |--4-3-----4----3--------------------------------------
G |----------------------5--------------------------------


......Chalo....jhoomein....aur.....gaayein....hum
B |--3----------------------------------------------------
G |-----5----4-5-----------4---------4------------------
D |--------------------------------6------6----5---------


Stanza -

......Hum.....chalein....to....zameen.....ghoomein 
B |--3-------3-3-----------------4--------3-4-6-4-3-4-----
G |---------------------4------------------------------------
D |---------------------------5------------------------------


......Hum....ruke....aasma........doobe
B |--4------6-8-----6-4-3--------3-4-3-1-3-------------
G |--------------------------4----------------------------


......Bolo....to....chaand....ko....choo....lein
B |--3-3----3---------------4-----3-4----4-6-4-3-4-----
G |---------------4----------------------------------------
D |-------------------5------------------------------------


......De....sada....to....jahan....jhoome
B |--4-----6-8----6----4-3----------3-------------------
G |-------------------------------4-----------------------


......O.....sunn le...yaar....ye.....tera.......pyar
B |--3----3-4-3----------------------3----------------
G |------------------5-------5-----5----5----4---------


......O.....sunn le...yaar....ye.....tera.......pyar
B |--3----3-4-3----------------------3----------------
G |------------------5-------5-----5----5----4---------


......Kare....hai......zinda....mujhe....har...... baar
G |--4-4----5-4------------------------4-----------------
D |------------------6-6-----6-6----------6-----5-------

Advertisement