Yaadon Ki Baaraat - 1973

Yaadon Ki Baaraat - 1973

Movie Info

    • Singers

      Md. Rafi and Asha Bhosle
    • Lyricists

    • Music Directors

      R. D. Burman
    • Mood/Type

      Love Song

    • Views

      244013

    • Purchase Track

Chura Liya Hai Tumne Jo Dil Ko tabs

NOTE - You can also use slide or touching in place 
 of p .

......Chura....liya....hai....tumne....jo....dil.. ..ko
G |--2-2------5-4----2----2-2p4----2-------------------
D |-----------------------------------------5-----5-------
A |--------------------------------------------------5-----

......Nazar....nahin....churana.....sanam
G |--2-2-----5-4------2-2-2p4----2-1-------------------

......Badalke....meri....tum....zindagaani
G |--2-2--------5-4----2-------2-2p4-2-----------------
D |-----------------------------------------5-5-----------
A |-----------------------------------------------5--------

......Kahin....badal....na....jaana.....sanam
G |--2-2-----5-4------2----2-2p4----2-1----------------

......Le....liya............dil.....ha....haan.... mera....dil
B |--3----3-3p5-3-----------3-----3--------3p5-3--------
G |---------------------4------------------------------4----
......Haaye....dil......lekar........mujhko.....na ....behlaana
B |--3-3------2----------2----------2---------------2--------------
G |--------------4----2-----4----2-----4-----2---------4-2-2----


......Chura....liya....hai....tumne....jo....dil.....ko
G |--2-2------5-4----2----2-2p4----2-------------------
D |-----------------------------------------5-----5-------
A |---------------------------------------------------5----

......Nazar....nahin....churana.....sanam
G |--2-2-----5-4------2-2-2p4----2-1-------------------

......Badalke....meri....tum....zindagaani
G |--2-2--------5-4----2-------2-2p4-2-----------------
D |-----------------------------------------5-5-----------
A |----------------------------------------------5---------

......Kahin....badal....na....jaana.....sanam
G |--2-2-----5-4------2----2-2p4----2-2----------------

STANZA -

......Bahaar....banke....aaoon
B |-------------3-3-3----3-5-3---------------------------
G |--2-4-5------------------------------------------------

......Kabhi.....tumhaari....duniya....mein
G |--5-4------2-4-5-------5-5-5-----5------------------

......Guzar....na.....jaaye.....ye.....din
B |------------------3-3-------3-----5-3-----------------
G |--2-4------5-------------------------------------------

......Kahin....issi.....tamanna....mein
G |--5-4-----2-4----5-4-2-------2-----------------------

......Bahaar....banke....aaoon
B |-------------3-3-3----3-5-3---------------------------
G |--2-4-5------------------------------------------------

......Kabhi.....tumhaari....duniya....mein
G |--5-4------2-4-5-------5-5-5-----5------------------

......Guzar....na.....jaaye.....ye.....din
B |------------------3-3-------3-----5-3-----------------
G |--2-4------5-------------------------------------------

......Kahin....issi.....tamanna....mein
G |--5-4-----2-4----2-2-2-------2-----------------------

......Tum....mere.........ho.....tum.....mere..... ...ho
B |--3------3-3p5-3-----------3-------3-3p5-3---------
G |-----------------------4---------------------------4---

......Aaj......tum.....itna...........vaada....... karte........jaana
B |--3-3----2-----------2-----------2------------2----------------
G |-------------4----2-----4-----2-----4------2-----4----2-2----


......Chura....liya
G |--2-2------5-4----------------------------------------

Advertisement