Main Hoon Na -2004

Main Hoon Na -2004

Movie Info

    • Singers

      Sonu Nigam, Shreya Ghoshal

    • Lyricists

      Javed Akhtar

    • Music Director

      Anu Malik, Ranjit Barot

    • Mood/Type

      Happy

    • Views

      222474

    • Purchase Track

Main Hoon Naa Guitar Tabs

It's not diffivult really, I was just a beginner when i played this song for the first time. Enjoy!!

E|------------5\3----------------------------------------------------||
B|------5--6-----6----3-3----3-3-------3---3-3------3--5-------------||
G|-----------------------------------5------------5------------------||
D|-------------------------------------------------------------------||
A|-------------------------------------------------------------------||
e|-------------------------------------------------------------------||
kiska hai yeh tumko intezaar main hoon na


E|------------5---3---------------------------------------------------||
B|------5--6-------6----3-3----3-3------3---3-3-----3--5--------------||
G|------------------------------------5-----------------5-------------||
D|--------------------------------------------------------------------||
A|--------------------------------------------------------------------||
e|--------------------------------------------------------------------||
dekhlo idhar to ek baar main hoon na



E|------------5-5-4-5---5-5-4-5------5/7------------------------------||
B|------5--6----------------------------------5-----------------------||
G|--------------------------------------------------------------------||
D|--------------------------------------------------------------------||
A|--------------------------------------------------------------------||
e|--------------------------------------------------------------------||
khamosh kyu ho jo bhi kehna hai kaho



E|------------5-5-4-5---5-5-4-5------5/7-----------7/8----------------||
B|------5--6-----------------------------5----------------------------||
G|--------------------------------------------------------------------||
D|--------------------------------------------------------------------||
A|--------------------------------------------------------------------||
e|--------------------------------------------------------------------||

dil chahe jitna pyar utna maanglo ..ho..

E|-----8-8---7----5--3----2-2-----2-2-----2----3------5---7-----------||
B|-------------------------------------2----------------------5-------||
G|--------------------------------------------------------------------||
D|--------------------------------------------------------------------||
A|--------------------------------------------------------------------||
e|--------------------------------------------------------------------||
tumko milega utna pyar main hoon na

Advertisement