Ek Chalis Ki Last Local -2007

Ek Chalis Ki Last Local -2007

Movie Info

    • Singers

      Syed Quadri, Sandeep Srivastava & Amitah Verma

    • Lyricists

      Xulfi

    • Music Director

      Ankur & Call - The Band

    • Mood/Type

      Sad

    • Views

      219735

    • Purchase Track

Laree Choote Guitar Tabs

h = hammer
/ \ = slide
p = pulling off

INTRO
e--------0-2-2/4--7-5-4-0h2--4-4-9-7-5-0h2--4---7-5\4-0h2-2p0-----|
B---------------------------------------------0-------------------|
G-----------------------------------------------------------------|
D-----------------------------------------------------------------|
A-----------------------------------------------------------------|
E-----------------------------------------------------------------|

  C          F 
kismat ka khail hai sara
  C          F
phirta tha main aawar
  C     F      G
ye kia se kia hogaya

  C          F 
char din ki zindagani
  C          F 
harpal ik nai kahani
 C     F      G
kia tha main kia ban gaya

  C          F
kia hua jo laree chootee
  C          F
jeewan ki gari lootee
  C     F      G
khuab to mujhko na jaga

  C          F
zindagi ik pal main sali
  C          F
yun plat gai hamari
jhoot hai to mujhko na bata

e--------0-2-2/4--7-5-4-0h2--4-4-9-7-5-0h2--4---7-5\4-0h2-2p0-----|
B---------------------------------------------0-------------------|
G-----------------------------------------------------------------|
D-----------------------------------------------------------------|
A-----------------------------------------------------------------|
E-----------------------------------------------------------------|

Continue this

Advertisement