Dilwale Dulhaniya Le Jayenge -1995

Dilwale Dulhaniya Le Jayenge -1995

Movie Info

    • Singers

      dont know

    • Lyricists

      dont know

    • Music Director

      dont know

    • Mood/Type

      Love Song

    • Views

      288854

    • Purchase Track

Tujhe Dekha To Ye Jaana Sanam Guitar Tabs

E---0-0-0-7-5-7-3--5--8-7-
Tujhe Dekha To Ye Jaana Sanam

E---0--0-0-7-5-7-3--5--3-2
Pyaar Hota Hai Deewana Sanam

E---0-2---0--2-0--3-2----
B------3------3----------
Ab Yahan Se Kahan Jaaen Hum

E---0-2---0--2--0--3-2---
B------3------3----------
Teri Baanhon Mein Mar Jaaen Hum

E---0-0-0-7-5-7-3--5--8-7-
Tujhe Dekha To Ye Jaana Sanam

E---0--0-0-7-5-7-3--5--3-2
Pyaar Hota Hai Deewana Sanam

E---0-2---0--2-0--3-2----
B------3------3----------
Ab Yahan Se Kahan Jaaen Hum

E-----------10--8--7-7-------------------
B---7-8-10------------8--10--12--10-8--7-5
Teri Baanhon Mein Mar Jaaen Hum

Advertisement