Julie -1975

Julie -1975

Movie Info

    • Singers

      Kishore Kumar

    • Lyricists

    • Music Director

      R.D.Burman

    • Mood/Type

      Love Song

    • Views

      218675

    • Purchase Track

Dil Kya Karee Guitar Tabs

Intro Music.....
E|-4--6-----4--6--4--7--4--7--4---4--6---------------|
B|------4-----------------------7---------------------|
G|-----------------------------------------------------|

E|--------------------4-4-4-4-4-4-------(repeat twice)
B|-7-9-7-9-7-9-7-9----------------4--7--
G|----------------------------------------------------|

E|---------6--7----6------6--9----6--9-6--9-----7--6----|
B|-----9---------------9----------------------------9-9|
G|-8---------------------------------------------------|
   Dil Kya Karey,  Jab Kisi  se,  Kisi ko Pyar Ho Jaye 

E|--------6--7----6------6--9----6-9-6--9-----7--6------|
B|-----9---------------9--------------------------9--9-|
G|-8---------------------------------------------------|
   Jaane  Kahan,  Kab  Kisiko,   Kisise Pyar Ho Jaye 

E|-11----11-9--11-11--11-11-11-9-9-9------------------|
B|--------------------------------------10------------|
G|-----------------------------------------------------|
   ho..   Oonchi    Oonchi   Deewaron   Si 

E|---------9-9--9h11-----7---7---7-----------------------|
B|----10-10----------------------------------------------|
G|-----------------------------------------------------|
      Iss  Duniya   Ki  Rasmein 

E|--11--11-9--11-11--11--11-11--9--9--9-------------------|
B|---------------------------------------10------------|
G|-----------------------------------------------------|
     Na Kuch  Tere      Bas    Mein   Julie 

E|---------9-9---9h11--7---7---7-------------------------|
B|--10--10------------------------------------9--7-------|
G|-----------------------------------------------------|
      Na   Kuch  Mere   Bas  Mein 

Jaise  Parbat  Pe     Ghata Jhukti Hai 
Jaise  Saagar  Mein   Lehar   Uthti  Hai 
Aise Kisi Chehre    Pe,  Nigaah  Rukti   Hai 

Ho..  Rok Nahin Sakti     Nazron  Ko 
Duniya Bhar  Ki Rasmein 
Na Kuch  Tere      Bas    Mein   Julie 
Na   Kuch  Mere   Bas  Mein 
Dil Kya Karey,  Jab Kisi  se,  Kisi ko Pyar Ho Jaye 
Jaane  Kahan,  Kab  Kisiko,   Kisise Pyar Ho Jaye 
Aa Maein Teri Yaad Mein Sab Ko Bhuladoon 
Duniya Ko Teri Tasveer Banadoon 
Mera Bas Chale To Dil Cheer Ke Dikhadoon 
Daud Raha Hai Saath Lahu Ke Pyar Tera Nas Nas Mein 
Na Kuch Tere Bas Mein Julie Na Kuch Mere Bas Mein 
Dil Kya Karey Jab Kisise Kisiko Pyar Ho Jaye

Advertisement