Yaara Dil Dara -1991

Yaara Dil Dara -1991

Movie Info

    • Singers

      Udit Narayan & Kavita Krishanamurthy

    • Lyricists

      Majrooh Sultanpuri

    • Music Director

      Jatin-Lalit

    • Mood/Type

      Love Song

    • Views

      220849

    • Purchase Track

Bin Tere Sanam Guitar Tabs

inital humming

E|---------0---2--0------------------------
B|-----0------------3----------------------
G|-----------------------------------------
D|--2--------------------------------------
    e   b  e   f# e d 

E|----------------------------------------
B|--0--------0---------0---0------------------
G|----0------------------2-----------0--------
D|------4-----------4-------------4-----2-----
    b g f#,   b,    f# b a b,     f# g  e  

E|---------0---2--0------------------------
B|-----0------------3----------------------
G|-----------------------------------------
D|-----------------------------------------
        b  e   f# e d 

E|----------------------------------------
B|--0--------0---------0---0------------------
G|----0------------------2-----------0--------
D|------4-----------4-------------4-----2-----
    b g f#,   b,    f# b a b,     f# g  e 

===============================

E|-----------------------------------------
B|-----0----------------0------------------
G|-------0----------------0----------------
D|-2--------4--2---2--------4---2----------
   e   b g  f# e,  e    b g f#  e,
   Bin Tere Sanam, Mar  Mitenge Hum

E|-----------------------------------------
B|-----0-----------------------------------
G|-------2----0-2--------------------0-2---
D|-2--------------4---------------4--------
   e   b a    g a f#............. f# g a
   Aaa Meree,  Zindageee


E|-----------------------------------------
B|--0--1--0--------------------------------
G|-------------2-0--------0-2--------------
D|----------------------------4------------
    b  c  b    a g        g a f#
    Aanaa Hee Padaa,      Sajanaaa


E|-----------------------------------------
B|-----------------------------------------
G|-----0-----------------------------------
D|-4-------4----0--4----4--2---------------
   f#  g   f#   d  f#   f# e
   Zaalim Hai  Dil ki  Lagii


Stanza:

E|-----------------------------------------
B|--0--0--0--1------1-0--------------------
G|----------------------0------------------
D|-----------------------------------------
    b  b  b  c      c b g
    Tere Hee Dum    Pe Hoongee

E|---------------------0-------------------
B|---0---0---0--3--3------3-1--------------
G|-----------------------------------------
D|-----------------------------------------
     b   b   b  d  d    e d c
     Dil Kii Muraadein  Pooree

E|-----------------------------------------
B|-----------------------------------------
G|--2---------2----------------------------
D|----4----4----4-----------4--0-----------
    a f#   f# a f#          f# d
    Tere   Bagaair          Janam

E|-----------------------------------------
B|-------------0--0------------------------
G|-----------------------------------------
D|---4---4--4-------4--2-------------------
     f#  f# f# b  b f# e 
     Hai Zindagi, Adhooori


Ai Mere Haseen , Ab Na Jaa Kaheen
Aaa Merii ..., Zindagii
Aanaa Hii Padaa ..... , Sajanaaa.....,

Zaalim Hai, Dil ki, Lagii.

Advertisement

Comments

Purchase Tracks