Naraaz -1994

Naraaz -1994

Movie Info

    • Singers

      Kumar Sanu

    • Lyricists

      Javed Akhtar

    • Music Director

      Nadeem-Shravan

    • Mood/Type

      Love Song

    • Views

      221331

    • Purchase Track

Sambhala Hai Mene Guitar Tabs

E|-6--6--4-------4--4----4--4------------------------|
B|-----------7-----------------7--4--7---7-----------|
G|---------------------------------------------------|
   Sambhala  hai maine   bahut apne  dil ko

E|-6--6--4-------4/6---4----4--4---------------------|
B|-----------7--------------------7--4--7---7--------|
G|---------------------------------------------------|
      Sambhala  hai maine      bahut apne  dil ko


E|----4---6---7--9--9----9---11---9--7-7--4----------|
B|-7-------------------------------------------------|
G|---------------------------------------------------|
   jubaan per tera  phir bhi naam aa raha hai

E|-6--6---4------4/6---4----4--4---------------------|
B|-----------7--------------------7--4--7--7---------|
G|---------------------------------------------------|
   ahaan raaz   ko         chupaaya na jaaye

E|----4--6---7----9-9---9---11-9--7-6--4-------------|
B|-7-------------------------------------------------|
G|---------------------------------------------------|
    muhabbat  mein aisa  makaam aa raha hai
   

E|----11-11-9---7---9/11--11-------------------------|
B|---------------------------------------------------|
G|---------------------------------------------------|
      banayaa   hai maine       

E|----13-11---9--7---9--9----------------------------|
B|---------------------------------------------------|
G|---------------------------------------------------|
      tujhe   apna   saathi

E|----11-9---7---6--7/9---7--------------------------|
B|---------------------------------------------------|
G|---------------------------------------------------|
      rahe   kis tarah    phir 

E|----9--7--6--4---6---6-----------------------------|
B|---------------------------------------------------|
G|---------------------------------------------------|
      mere  hosh   baaki
 

E|----9--7--6---4--6/7---4---------------------------|
B|---------------------------------------------------|
G|---------------------------------------------------|
      rahe  kis tarah    phir 

E|----4----------------------------------------------|
B|-------7--4---2--4---4-----------------------------|
G|---------------------------------------------------|
      mere  hosh   baaki

Advertisement

Comments

Purchase Tracks