Tere Naam - 2003

Tere Naam - 2003

Movie Info

    • Singers

    • Lyricists

    • Music Directors

      Himesh Reshmiya
    • Mood/Type

      Love Song

    • Views

      230553

    • Purchase Track

Tere Naam tabs

INTRO
E -----------------8-7-10-8------------
B ------8-10-8-8-8---------10-10-10-----
G -9-10---------------------------------
D --------------------------------------
A --------------------------------------
E --------------------------------------



E -------------------------------------------
B ------8-10-8h10-10-10-13-12-10-8-10-8-6-7--
G -9-10--------------------------------------
D -------------------------------------------
A -------------------------------------------
E -------------------------------------------
*********************************************


E --------------------------------------
B --------------------------------------
G -6-7-9-6-7-6h4-4h2-2-2h4-4------------
D --------------------------------------
A --------------------------------------
E --------------------------------------
Teeeeeeeeere naaaaaaaam hum nein kia hai


E --------------------------------------
B --------------------------------------
G --------------------------------------
D -4-5-7-9-7-9h11-9-7-7-----------------
A --------------------------------------
E --------------------------------------
Jewan apna sara sanammmmmmmmmmmm




E --------------------------------------
B --------------------------------------
G -6-7-9-6-7-6h4-4h2-2-2h4-4------------
D --------------------------------------
A --------------------------------------
E --------------------------------------
pyarrrrr bhouhat...kerte hain tum se


E --------------------------------------
B --------------------------------------
G --------------------------------------
D -4-5-7-9-7-9h11-9-7-12-----------------
A --------------------------------------
E --------------------------------------
ishq tu hai hamara sanammmmmmmmm !




E -----------------8-7-10-8-------------
B ------8-10-8-8-8---------10-10-10-----
G -9-10---------------------------------
D --------------------------------------
A --------------------------------------
E --------------------------------------



E -------------------------------------------
B ------8-10-8h10-10-10-13-12-10-8-10-8-6-7--
G -9-10--------------------------------------
D -------------------------------------------
A -------------------------------------------
E -------------------------------------------

Advertisement