Dilwale Dulhaniya Le Jayenge -1995

Dilwale Dulhaniya Le Jayenge -1995

Movie Info

    • Singers

    • Lyricists

    • Music Director

      Jatin Lalit

    • Mood/Type

      Love Song

    • Views

      224362

    • Purchase Track

Ho Gaya Hai Tujhko Guitar Tabs

E-----3-5-3-3-6-5-3-3-5-6-8-5-
B-3-----------------------------
Na jaane mere dil ko kya ho gaya (Play slow)

E-----2-5-3-2-5-3-2-5-6-6-3----
B-3-------------------------------
Abhi to yahin tha, abhi kho gaya (play slow)


E-----3-5-3-3-6-5-3-3-5-6-8-5-
B-3-----------------------------
Na jaane mere dil ko kya ho gaya 

E-----2-5-3-2-5-3-2-5-6-6-3----
B-3-------------------------------
Abhi to yahin tha, abhi kho gaya


E-3-10-8-10-6-8-6-6-8-5-5-5-6-8-5-
Ho gaya hai tujhko to pyaar sajna

E-1-8-6-8-5-5-6-5-6-3-3-3-
Laakh kar le tu inkaar sajna

E-6-5-6-3-3-3--6-5-6-3-3-3-
Dildaar sajna, hai yeh pyaar sajna


E-3-10-8-10-6-8-6-6-8-5-5-5-6-8-5-
Ho gaya hai tujhko to pyaar sajna

E-1-8-6-8-5-5-6-5-6-3-3-3-
Laakh kar le tu inkaar sajna

E-6-5-6-3-3-3--6-5-6-3-3-3-
Dildaar sajna, hai yeh pyaar sajna

E-6-5-3-6-6-5-6-8-8-5-
Dekha na tune mudke bhi peeche

E-5-5-3-5-8-6-5-3-
Kuch der to main ruka tha


E-6-5-3-6-6-5-6-8-8-5-
Jab dil ne tujhko rokna chaaha

E-5-3-5-10-8-10-10-
Door tu jaa chuka tha


E-1-3-5-3--0-1-3-1-
Hua kya…Na jaana



E-1-3-5-5-3-----------0-------
B----------------1-3-----------3----
Yeh Dil Kyon…Deewana


Ho gaya hai tujhko to pyaar sajna
Laakh kar le tu inkaar sajna
Dildaar sajna, hai yeh pyaar sajna


E-1-0----------1-1-0-1-3-3-0-
B--------3--------------------------
Ae waqt ruk jaa, tham jaa, thaher jaa

E-0-0----------0-3-1-0----------
B---------3------------------3------
Waapas zara daud peeche


E-3-2-0-3-3-2-2-3-5-5-2-
Main chhod aayi khud ko jahan pe

E-2-2-0-2-7-5-7-7
Woh reh gaya mod peeche

E-3-5-7-5-
Kahan main

E-2-3-5-3-
Kahan tu

E-3-5-7-7-5---------0-2-0----
B----------------3------------
Yeh kaisa… Hai jaadu


E-3-3-10-8-10-6-8-6-6-8-5-5-5-6-8-5-
Arre Ho gaya hai tujhko to pyaar sajna

E-1-8-6-8-5-5-6-5-6-3-3-3-
Laakh kar le tu inkaar sajna

E------3-5-3-3-6-5-3-3-5-6-8-5-
B-3-----------------------------
Na jaane mere dil ko kya ho gaya (Play slow)

E--------2-5-3-2-5-3-2-5-6-6-3----
B-3-------------------------------
Abhi to yahin tha, abhi kho gaya (play slow