Aashiqui - 1990

Aashiqui - 1990

Movie Info

    • Singers

    • Lyricists

    • Music Directors

      Nadeem Sharvan
    • Mood/Type

      Love Song

    • Views

      254808

    • Purchase Track

Saanson Kii Jarurat Hai Jaise tabs

E---------------
B------4-2-4-2-0-0-0-2/4-4/5-4-2-2-2-0-2-0-----------------
--------------------------------------3---------------
------------------------------------------------------
------------------------------------------------------


E-------
B----2-0-2-0-3-3-3-0/2-4-2-4-4-0-0-----------------------
------------------------------------------------------
------------------------------------------------------
------------------------------------------------------

Ho Ho Ho Ho HO Ho HO
Gstring----4-4-2-2-5-5-4-4-2-2-0-0--2-----------------
Ho Ho Ho Ho HO Ho HO
G----------2-2-0-0-4-4-2-2-0-0-----2------------------
D------------------------------3-3--------------------


E--3-3-3---3-1-1-1---5-5-5-1-5-3-3-3------------------
B--------3--------------------------------------------



Saso ki jarurat hai jaise
G--0-0-0-0-0-2-0-----------------
D----------------3-3-----

Saso ki jarurat hai jaise
G--0-0-0-0-0-2/4-2---0---------------------
D------------------3---3-----------

jindagi ke liye
G-----3-3-2-2---------
D-0-3---------------

Bas ek sanam chahiyee-ee-ee
B--1-1-1-1-1-3-1-0-------------------------
G------------------2-0---------------

aashiki ke liye
G------2-2-0-0----2-2/4-2/4-2-2/4-0----------------
D--0-3------------------------------3------------------



manjile hasil hai fir bhi ek duri hai
G--4-2-4-2-0-2/4-2-4-2-4-2-0-0-0-----------

bina hum rahi ke jindagi adhuri hai
G--4-2-4-2-0-2/4-2-4-2-4-2-0-0-0-------------

milegi kahi koi reh gujar
B--3-3-1/3-1-0----------------------------------------------------
G--------------0-0---0----------------------------------------
D------------------3---3-2------------------------------------

tanha katega kaise ye safar
B--3-3-1/3-1-0----------------------------------------------------
G--------------0-0---0----------------------------------------
D------------------3---3-2------------------------------------


mere sapane ho jawa dhoondu mein aisi nazar
B--5-5-5-3/5-3-0-1---------1/3-3-0-1--------------------
G------------------0-4-4-4-------------------------------------------

Advertisement